Blues For Allah

 

|--------------------| 
|------------------1-|
|----2-3-4-5---4-3-2-|
|--3---------3-----3-| 
|--------------------|
|--Intro ------------|

 

Arabian wind,  The needle's eye is thin,

The ships of state sail on mirage, and drown in sand,

|1A---------|-------------|-------------------------|
|-----------|-------------|-------4-3---------------|
|---3-5---2-|---3-5-3---2-|---3-5-----4-5---2-3-----| 
|-3-----5---|-3-------3---|-3-------------5-----3-2-|
|-----------|-------------|-------------------------|

|-----------|-------------|-------------------------|

 

Out in no-man's land  here Allah does command.  

What good is spilling blood?  It will not grow a thing;

|1B------------|---------------------|-------------------------|

|--------------|---------------------|-------4-3---------------|

|---3-5---2----|---3-5-3---2---------|---3-5-----4-5---2-3-----|

|-4-----4------|-4-------4-----------|-4-------------5-----3-2-|

|--------------|---------------------|-------------------------|

|--------------|---------------------|-------------------------|

 

“Taste eternity,” the swords sing: Blues of Allah In 'sh'Allah.

|-----1-0-----------|---------------|

|---------2-3---1---|---------------|

|-2-3---------2---3-|-----6-4---3-2-|

|-------------------|-5-6-----4-----|           3

|-------------------|---------------|

|-------------------|---------------|

 

They lie where they fall,  There's nothing more to say,

The desert stars are bright tonight lets meet as friends,

|-----------|------------------|--------------------------|

|-----------|------------------|-------4-3----------------|

|---3-5---2-|---3-5-3---2------|---3-5-----4-5---2-3------|

|-3-----5---|-3-------3--------|-3-------------5-----3-2--|

|-----------|------------------|--------------------------|

|-----------|------------------|--------------------------|

 

The Flower of Islam, The Fruit of Abraham.

|--------------|---------------------|

|--------------|---------------------|

|---3-5---2----|---3-5-3---2---------|

|-3-----5------|-3-------3-----------|

|--------------|---------------------|

|--------------|---------------------|

 

The thousand stories have come round to one again,

|-------------------------------------|
|-------4-3---------------------------|
|---3-5-----4-5---2-3-----------------|
|-4-------------5-----3-2-------------|
|-------------------------------------|

|-------------------------------------|

 

Arabian night,     Our Gods pursue their fight,

What fatal flowers of darkness bloom from seeds of light.

|--------------|---------------------|-------------------------------------|
|--------------|---------------------|-------4-3---------------------------|
|---3-5---2----|---3-5-3---2---------|        ---3-5-----4-5---2-3-----------------|
|-4-----4------|-4-------4-----------|-4-------------5-----3-2-------------|
|--------------|---------------------|-------------------------------------|

|--------------|---------------------|-------------------------------------|

 

 Bird of paradise fly in white sky, Blues for Allah In 'sh'Allah,

|----------------------|---------------|
|-----6-5---3----------|---------------|
|-2-3-----6---2-5-3----|-----6-4---3-2-|
|----------------------|-5-6-----4-----|
|----------------------|---------------|

|----------------------|---------------|

 

Let's see with our heart, These things our eyes have seen,

And know the truth must still lie somewhere in between.

|-----------|------------------|-------------------------|
|-----------|------------------|-------4-3---------------|
|---3-5---2-|---3-5-3---2------|---3-5-----4-5---2-3-----|
|-3-----5---|-3-------3--------|-3-------------5-----3-2-|
|-----------|------------------|-------------------------|

|-----------|------------------|-------------------------|

 

Under eternity, under eternity, under eternity blue,

|---------------|---------------|--------------------|
|----8-9-10-9-8-|----8-9-10-9-8-|----8-9-10-9-8------|
|-10------------|-10------------|-10------------10---|
|---------------|---------------|--------------------|
|---------------|---------------|--------------------|

|---------------|---------------|--------------------|

 

|-----------15b17r15-13h15----------------------------|
|-----13-15---------------------------------------------------|
|-/14--------------------------------------------------------|
|---------------------------------------------------------|
|---------------------------------------------------------|

|---------------------------------------------------------|

 

Bird of paradise fly in white sky, Blues for Allah In 'sh'Allah.

|----------------------|---------------|
|-----6-5---3----------|---------------|
|-2-3-----6---2-5-3----|-----6-4---3-2-|
|----------------------|-5-6-----4---2-|

|--------------------------------------|

|--------------------------------------|

 

hi Jerry part

|----18-20----18-|----18-20-18----17-|--------------------------------|
|-18-------20----|-18----------18----|------------------------------|
|----------------|-------------------|----------------------|