<EMBED SRC="help.wav" AUTOSTART="TRUE" HIDDEN="TRUE" LOOP="TRUE"> <NOEMBED> <BGSOUND SRC="help.wav" LOOP="INFINITE"> </NOEMBED>
You need the Windows “Wingdings” font enabled to get the full benefit of the little carets below

Help On The Way                                     

88bpm

Paradise waits, s1 on the crest of a wave, her angels in flames. s2

r1 She has no pain, s1 like a child she is pure, she is not to blame. r2

Poised for flight, wings spread bright, Spring from night into the sun.

r1 Don't stop to run, s1 She can fly like a lie, she can't be outdone. r1

 

r1 Tell me the cost, sI can pay, let me go, tell me love is not lost.s

r1 Sell everything; swithout love day to day insanity's king.r2

I will pay day by day, anyway, lock, bolt and key.

r1 Crippled but free, sI was blind all the time I was learning to see.

 

rHelp on the way, swell, I know only this, I've got you today.s

rDon't fly away, scause I love what I love and I want it that way.r

I will stay one more day, like I say, honey it's you.

rMaking it too, swithout love in a dream it will never come true.r

 

HELP/SLIP STRUCTURE IN SUMMARY:

Intro,  2 Verses HOTW, Lead, 1 Verse HOTW

4x Fm Riff

Fm to Gm

2x Double Am Riff

2 part Jam

4x Single Am Riff w/drums

1 Double with Half Whip

1 Double with Full Whip

Ending

 

Intro and Verse

 

|-Bass-------------|--------------------|

|------------------|--------------------|

|------------------|---1p0--------------|

|---------1-3---0--|-3-----3p1---1h3-0--|

|----1-3-----------|-----------3--------|

|-1----------------|--------------------|

 

||  Fm / / / | Cm / / / | / / Fm / :||

Intro Fm x 2                          Paradise waits, s1  into Cm

|--8--8-------8--|  |-r1--------------|     |-s1----------Cm-|

|--9--9----9--9\-|  |------------------|     |------------------|

|-10-10---10-10\-|  |-------5----------|     |-------5----------|

|-10-10---10-10\-|  |-----6---8-5------|     |-----6---8-5------|

|--8--8----8-----|  |-------------6-8--|     |-------------6----|

|--8--8----------|  |-7/8-----------Fm-|     |-7/8-----------8--|


 

Cm                                        A#m7     Fm      Fm Eb Fm/D

on the crest of a wave, her angels in flames.

|-----------------angels-flames-|-s2-------------|-r1-----to the Fm-| 

|-4-4-4--4-4-4--4--2-----1------|-----------------|-------1----------| 

|-5-5-5--5-5-5--5--1-1---1------|-----------------|-----1---3-0------| 

|-5-5-5--5-5-5--5--3---3-3------|---1-2-3--1------|-1/3---------1h3--| 

|-3-3-3--3-3-3--3--1-----3------|-3-----------3/5-|------------------| 

|--Cm-------------A#m----Fm-----|-------Fm-Eb-Fm/D|------------------| 

 

Fm              

She has no pain, s2

Cm                                       Bbm       Fm      Fm Cm Fm

like a child she is pure, she is not to blame.  r2

|-r2------------|-------|

|---------------|-----1-|

|---------------|---1---|-Poised

|---1-2-3-1---3-|-3-----|

|-3---------3---|-------|

|---------------|-------|

                                                                                                               (Hoooo  Harm=G)

Poised for flight, wings spread bright, Spring from night into the sun.

 

 Dm7-5 G#  G7 (x2)                 Cm  G7  Fm   Cm  Fm/D G#maj7 FmAdd9=xx3113  

|-------------------------------------------1-------------3-|--------------|

|-6----4---3----3--6---4---3------3--4--3---1---8--8--8-6-4-|-8-8--8-8--8~-|

|-5----5---4--5----5---5---4-----4---5--4---1---8--8--8-7-5-|-6-6--6-6--6~-|

|-6----6---3-------6---6---3--5-5----5--3---4--10-10-10-8-6-|-8-8--8-8--8~-|

|-5--------5-------5-------5---------3----------------------|-8-8--8-8--8~-|

|-----------------------------------------------------------|--------------|

                                                         

| Fm / / / | Cm / / / | Cm / Fm / |

r1 Don't stop to run,s1  

She can fly like a lie, she can't be outdone.r1

 

                    (Hoooo  Harm=G)

Tell me the cost,

                                                (Hoooo  Harm=G#)

I can pay, let me go, tell me love is not lost.

Sell everything;

without love day to day insanity's king.

I will pay day by day, anyway, lock, bolt and key.

                       (Hoooo  Harm=G)

Crippled but free, 

                                                  (Hoooo  Harm=G#)

I was blind all the time I was learning to see. (Heeeyah)


Help on the Way Lead = Verse

Fm scale is Eb-D# major scale which is F Dorian (2nd)

Cm scale is A#/Bb major

Difference is one note - Ab (Fm) or A (Cmin)

F G Ab Bb C D Eb F G Ab Bb C

F G A   Bb C D Eb  F G A   Bb C

 

 

Lead

 

|-Verse-1-|------------------------------------|---------------|----------|

|---------|------------------------------------|---------------|----------|

|-8-8\-10-|-12-13p12-10-11-12p11p10\8---8-10p8-|---8h9h10-8h10-|-/10-8-7\-|

|---------|---------------------------9--------|-9-------------|----------|

|---------|------------------------------------|---------------|----------|

|---------|------------------------------------|---------------|----------|

 

|-11-11/13-|-------------------12h13-16\15-13h15-|-------15-18p15-------|

|----------|-------------13-15-------------------|-16-18----------16h18-|

|----------|-11/12-14-15-------------------------|----------------------|

|----------|-------------------------------------|----------------------|

|----------|-------------------------------------|----------------------|

|-Verse-2--|-------------------------------------|----------------------|

 

|----11-12-13-11-13-|-------10-11-13-11-10-|---|-------10--11-10----|

|-13----------------|-12-13----------------|---|-12-13-----------13-|

|-------------------|----------------------|-%-|--------------------|

|-------------------|----------------------|-%-|--------------------|

|-------------------|----------------------|---|--------------------|

|-------------------|-Verse Bridge---------|---|--------------------|

 

|-/15-15-15-13-11-|----11-13/15-13-11-13p11-13-13/15~-|

|-----------------|-13--------------------------------|

|-----------------|-----------------------------------|

|-----------------|-----------------------------------|

|-----------------|-----------------------------------|

|-----------------|-----------------------------------|

 

|-(Last Verse)-----------------|----------------------|--------------------|

|------------------------8-9-8-|-------8--------------|--------------------|

|-----------------8-9-10-------|-10-11---11-10-8------|--------------------|

|----------8-9-10--------------|-----------------9h10-|-10-9-8--6-8/10-----|

|-8--10-11---------------------|----------------------|----------------8\\-|

|------------------------------|----------------------|--------------------|

 

|-------------|

|-------------|

|-------------|

|---1-2-3-1-3-|

|-3-----------|

|-------------|  (to basic riff)

 

Verse

 

Help on the way, well, I know only this, I've got you today.

Don't fly away, cause I love what I love and I want it that way.

I will stay one more day, like I say, honey it's you.

Making it too, without love in a dream it will never come true. (Heeyah)

 


Slipknot

Part 1

 

Fm Slip Riff:  4x                   

| :  4  Fm / Cm / |

|--8--8-------8--|-Fm Slip Lick-----------|

|--9--9----9--9\-|------------------------|

|-10-10---10-10\-|-------5----------------|

|-10-10---10-10\-|-----6---8-5-------5----|

|--8--8----8-----|-7/8---------6---6---8--|

|--8--8----------|---------------8--------|

 

 

 

“Fm to Gm”         

Half Fm riff gCdim Riff g Gm Riff:

|------------|-------------8--------------------------|

|------------|--------7-10---10-7---10-7-----7--------|

|-------5----|------8-------------8------8-----8------|

|-----6---8--|-8/10------------------------10----10-7-|

|-7/8--------|----------------------------------------|

|------------|--Cdim riff-----------------------------|

 

|Gm-riff---------------------------------|

|----------------------------------------|

|------7-------------7-------------------|

|----8---10--8----8----10-7--------7-----|

|-10-----------10-----------8----8---10--|

|-----------------------------10---------|

 

 

 

Gm “Whip”

Gm Half riff g Ddim Riff g “Way Up” Riff  (No Edim Riff as in “Full” Whip)

|----------|-------------10------------------------------|

|----------|--------9-12----12-9----12-9-------9---------|

|------7-5-|-----10--------------10------10------10------|

|-/5-8-----|-/12----------------------------12------12-9-|

|----------|---------------------------------------------|

|-Gm-------|--Ddim Riff ---------------------------------|

 

|-----------12/-|-17-14-------------------|-15-12-------------------|

|--------12-----|-------15----17-14-------|-------13----15-12-------|

|-----12--------|----------16-------14----|----------14-------12----|

|-/14-----------|----------------------16-|----------------------14-|

|---------------|-------------------------|-------------------------|

|-Em--“Way Up”->|- Bm7--------F#m7--------|-Am7---------Em7---------|

 

|----------|-----------|----------|-Am-----|

|-10-7-----|-8---------|----------|--------|

|------7---|---9-------|-7--------|--------|

|--------9-|-----10--7-|---9------|-7h9~~--|

|----------|-----------|-----10-7-|--------|

|-Bm7------|-Am7-------|-Em7------|--------|

 

 

“Double” Am Riff        2x

(“Double” means repeat Riff immediately - no drums as in single)

 

|-Am Riff------------------------------|

|--------------------------------------|

          |------9-7-----------9-7---------------| and again

|-7-10-------10-7-10-----9-------9-7---|

|--------------------------10-10-------|

|-Am--------------------------Em---Am--|

 

(Accent change for second half)

 

|-Am Riff----------------------------------|

|------------------------------------------|

           |--------9-7---------9-7-------------------|  and again

|---7-10-----10-7-10-----9-------9-7-------|

|--------------------------10-10-----------|

|-Am------------------------Em-----Am------|

 

|-Bob------|----------|----------|

|--------5-|--------5-|----------|

|----5-7---|----5-7---|-4--------|

|--7-------|--7-------|---7-5-7--|

|----------|----------|----------|

|----------|----------|----------|

F--4-2-4-2-|----------|-1-4-2-4--|

 

 
 

JAM

 

Jam 1 A minor  32x  (Slight Distortion) (Am, F major scale form; Target Note is an E

 

                    |--5----5--|-----|--7--|    Intro Jam chords

|--5-7--8--|-----|--5--|

|--5----5--|--%--|--5--|

|--5----5--|--%--|--5--|

|--7----7--|-----|-----|

|--5----5--|-----|-Am9-|

 

|------------------|----------------|-----------------------|

|------------4-----|----------------|-----------------------|

|------8/-9--4h5p4-|----------------|-----------------2-----|

|------9/10--------|---------0-1-2~-|-----------0-1-2---/4\-|

|-0-0--------------|-0---2-3--------|-0-----2-3-------------|

|---------Am-------|----------------|---4/5-----------------|

 

|-----------------------------------|

|------------------10-8---7---------|

|----------9-7---9----------8-9-8h9-|

|----7---9-----7--------------------|

|-/7---7----------------------------|

|-----------------------------------|

 

|--------------------------------------7-8-7-|--------------|

|-------------------7-8---7-----7-8-10-------|--------------|

|----------9--7-8-9-----9-----9--------------|------------9-|

|----7---9-----------------------------------|------7---9---|

|-/7---7-------------------------------------|-/7-7---7-----|

|--------------------------------------------|--------------|

 

|----------------------------|-----------------------------|

|-------------------15-13-12-|-----------------------------------|

|-------14-12----14----------|-----------------------------------|

|-12-14-------12-------------|-----------------------------------|

|----------------------------|-----------------------------|

|----------------------------|-----------------------------|

 

|----------------12\\-----------------------------------------|

|-------12-13-15------------------------------------------------|

|-13-14--------------------------------------------------------|

|---------------------------------------------------------|

|---------------------------------------------------------|

|---------------------------------------------------------|

 

|--------------------------------------------------------------|

|----------------------------13-12h13----12-------12-13p12h13--|

|-------------------12-13-14----------14----13h14--------------|

|----------12-13-14--------------------------------------------|

|-12-14-15-----------------------------------------------------|

|--------------------------------------------------------------|

 

 

|----------12p11h12------------------------------|

|-15p14h15----------15b17----------------------------|

|----------------------------------------|

|----------------------------------------|

|----------------------------------------|

|----------------------------------------|

 

|-End lick------------------|----------------------------|

|-------------12-10---------|----------------------------|

|-----9-10-11-------11-9----|----------------------------|

|--12--------------------12-|-9h10-----------------------|

|---------------------------|------12-11-10-9----Fuzz-0--|

|---------------------------|-----------------10---------|

Ends on First Fuzz A
 

 

Jam 2

Short Lead

Starts with Climb into Closing Whip of Slipknot

|| :  Am  Bm  “C”  “D”  “Em” :||        12x

|----------------|

|-1--3--0--0--0--|

|-2--4--5--7--9--|

|-2--4--5--7--9--|

|-0--0--0--0--0--|

|----------------|

 

|---------------------------------------------------------|

|-----------------------7-8-10--------------------------------|

|-------------6h7-|-8-9-----------------------------------------------|

|-4-|-5-|-7-|--------------------------------------------------------|

|---------------------------------------------------------|

|---------------------------------------------------------|

 

|-16-19-16-16-19-16-16-19-16-16-16-|-17b19-----------------|

|----------------------------------|-----------------------|

|----------------------------------|-----------------------|

|----------------------------------|-----------------------|

|----------------------------------|-----------------------|

|----------------------------------|-----------------------|

 

|-----4-5-7-5-4-------|-------------------------|

|---7-----------7-5---|---8-5-------------------|

|-7-------------------|-------8-7-5\4-----------|

|---------------------|---------------5--7-fuzz-|

|---------------------|-------------------------|

|---------------------|-------------------------|

Jam 2 Ends on Second Fuzz A


PART 2

 

 

 

“Single” Am Riff   w/ Drums and Bass   4 x

 

 

 

“Double” Am Riff x1   g   1/2 Am Riff g Ddim7 or “half” Whip

|----------|-------------10------------------------------|

|----------|--------9-12----12-9----12-9-------9---------|

|------9-7-|-----10--------------10------10------10------|

|-7-10-----|-/12----------------------------12------12-9-|

|----------|---------------------------------------------|

|-Half Am--|--Ddim Riff ---------------------------------|

 

 

 

 

“Double” Am Riff x1 g  1/2 Am Riff w/Full Whip

|----------|-------------10------------------------------|

|----------|--------9-12----12-9----12-9-------9---------|

|------9-7-|-----10--------------10------10------10------|

|-7-10-----|-/12----------------------------12------12-9-|

|----------|---------------------------------------------|

|-Half Am--|--Ddim Riff ---------------------------------|

 

|-------------12----------------------------------|

|-------11-14----14-11----14-11-------11----------|

|----12----------------12-------12-------12-------|

|-14-------------------------------14-------14-11-|

|-------------------------------------------------|

|-Edim Riff---------------------------------------|

 

|-----------12/-|-17-14-------|-------------|-15-12-------|-------------|

|--------12-----|-------15----|-17-14-------|-------13----|-15-12-------|

|-----12--------|----------16-|-------14----|----------14-|-------12----|

|-/14-----------|-------------|----------16-|-------------|----------14-|

|---------------|-------------|-------------|-------------|-------------|

|-Em--“Way Up”->|-Bm7---------|-F#m7--------|-Am7---------|-Em7---------|

 

|----------|-----------|----------|

|-10-7-----|-8---------|----------|

|------7---|---9-------|-7--------|

|--------9-|-----10--7-|---9------|

|----------|-----------|-----10-7-|

|-Bm7------|-Am7-------|-Em7------|

 

 

 

Ending:   4x

|  | :  A / Cmaj7 / | C maj7 Bm A / :||

 

|--0----0----|-------------------|  |----------------|

|--2----0----|--13/14---12---10--|OR|----------------|

|--2----0----|-------------------|  |----------------|

|--2----2----|--13/14---12---11--|  |----------------|

|--0----3----|-------------------|  |-------2/4-2-0--|

|--A---Cmaj7-|----------------A--|  |-0-2-0-------A--|

.....Beginning of Franklin's Tower

 

 

Miscellany:

Co7  Do7  Do7  Eo7  Eo7    

|-2----4----4----3----6-----|

|-4----6----3----2----8-----|

|-2----4----4----3----6-----|

|-4----6----3----2----8-----|

|-3----5----5---------7-----|

|---------------------------|